Le Forum Tokio Hotel


 
AccueilPortailFAQMembresGroupesRechercherS'enregistrerConnexion

Partagez | 
 

 [Guitare] Beichte

Aller en bas 
AuteurMessage
Boo'
Admin/Fondatrice
Boo'

Nombre de messages : 1613
Age : 26
Ta localisation : Doha
Ton membre préféré : :face:
Date d'inscription : 15/10/2007

MessageSujet: [Guitare] Beichte   Mar Nov 06, 2007 7:25 pm

INTRO
E-------------------------------------|
B-------------------------------------|
G--9-9-9-9-9-9-9-9--6-6-6-6-6-6-6-6---|
D--9-9-9-9-9-9-9-9--6-6-6-6-6-6-6-6---| x8
A--7-7-7-7-7-7-7-7--4-4-4-4-4-4-4-4---|
E-------------------------------------|


COUPLET
E--------------------------------
B--------------------------------
G--9-9-9-9-9-9-9-9--6-6-6-6-6---- D--9-9-9-9-9-9-9-9--6-6-6-6-6---- x4
A--7-7-7-7-7-7-7-7--4-4-4-4-4----
E--------------------------------

E------------------------------------
B-----------------------------------
G--4-------------------------------- x 12
D--4--------------------------------
A--2--------------------------------


Puis:

E---------------------|
B---------------------|
G--5-5-5-5-5-5-5-5-5--|
D--5-5-5-5-5-5-5-5-5--|
A--3-3-3-3-3-3-3-3-3--|
E---------------------|



CHORUS
E---------------------------------------------|
B---------------------------------------------|
G--9-9-9-9-9--6-6-6-6-6--4-4-4-4-4------------|
D--9-9-9-9-9--6-6-6-6-6--4-4-4-4-4--7-7-7-7-7-|
A--7-7-7-7-7--4-4-4-4-4--2-2-2-2-2--7-7-7-7-7-|
E----------------------------------- 4-4-4-4-4-|

E-----------------------------------|
B-----------------------------------|
G--9-9-9-9-9--6-6-6-6-6--4-4-4-4-4--|
D--9-9-9-9-9--6-6-6-6-6--4-4-4-4-4--|
A--7-7-7-7-7--4-4-4-4-4--2-2-2-2-2--|
E-----------------------------------|

COUPLET
E--------------------------------
B--------------------------------
G--9-9-9-9-9-9-9-9--6-6-6-6-6---- D--9-9-9-9-9-9-9-9--6-6-6-6-6---- x4
A--7-7-7-7-7-7-7-7--4-4-4-4-4----
E--------------------------------

E------------------------------------
B-----------------------------------
G--4-------------------------------- x 12
D--4--------------------------------
A--2--------------------------------
E------------------------------------


Jouez le refrain et les accords au-dessus (442 x 12) 2 fois et ensuite enchainez avec :

E---------------------|
B---------------------|
G--5-5-5-5-5-5-5-5-5--|
D--5-5-5-5-5-5-5-5-5--|
A--3-3-3-3-3-3-3-3-3--|
E---------------------|

CHORUS
E---------------------------------------------|
B---------------------------------------------|
G--9-9-9-9-9--6-6-6-6-6--4-4-4-4-4------------|
D--9-9-9-9-9--6-6-6-6-6--4-4-4-4-4--7-7-7-7-7-|
A--7-7-7-7-7--4-4-4-4-4--2-2-2-2-2--7-7-7-7-7-|
E----------------------------------- 4-4-4-4-4-|

E-----------------------------------|
B-----------------------------------|
G--9-9-9-9-9--6-6-6-6-6--4-4-4-4-4--|
D--9-9-9-9-9--6-6-6-6-6--4-4-4-4-4--|
A--7-7-7-7-7--4-4-4-4-4--2-2-2-2-2--|
E-----------------------------------|
Refrain x2

BRIGDE
E--------------------------------------------------|
B--------------------------------------------------|
G--4-4-4-------------------------------------------|
D--4-4-4-------------------------------------------|
A--2-2-2-------------------------------------------|
E--------------------------------------------------|


E--------------------------------------------------|
B--------------------------------------------------|
G--6-6-6-6-6--8-8-8-8-8--11-11-11-11-11-9-9-9-9-9--|
D--6-6-6-6-6--8-8-8-8-8--11-11-11-11-11-9-9-9-9-9--|
A--4-4-4-4-4--6-6-6-6-6- -9--9--9--9--9-- 7-7-7-7-7--|
E--------------------------------------------------|

E---------------------------------------|
B---------------------------------------|
G--6-6-6-6-6--8-8-8-8-8--11-11-11-11-11-|
D--6-6-6-6-6--8-8-8-8-8--11-11-11-11-11-|
A--4-4-4-4-4--6-6-6-6-6--9--9--9--9--9--|
E---------------------------------------|

CHORUS
E---------------------------------------------|
B---------------------------------------------|
G--9-9-9-9-9--6-6-6-6-6--4-4-4-4-4------------|
D--9-9-9-9-9--6-6-6-6-6--4-4-4-4-4--7-7-7-7-7-|
A--7-7-7-7-7--4-4-4-4-4--2-2-2-2-2--7-7-7-7-7-|
E----------------------------------- 4-4-4-4-4-|

E-----------------------------------|
B-----------------------------------|
G--9-9-9-9-9--6-6-6-6-6--4-4-4-4-4--|
D--9-9-9-9-9--6-6-6-6-6--4-4-4-4-4--|
A--7-7-7-7-7--4-4-4-4-4--2-2-2-2-2--|
E-----------------------------------|

_________________
Michael revient je t'en supplis
Reviens...tu as toujours ete present pour moi s'il te plait tu dois revenir...
Un monde sans toi est inconcevable...je realise toujours pas que tu n'est plus la...
Revenir en haut Aller en bas
Voir le profil de l'utilisateur
Invité
Invité



MessageSujet: Re: [Guitare] Beichte   Ven Nov 09, 2007 5:12 pm

Ca va elle est pas trop dure a jouer
Revenir en haut Aller en bas
Spoon47
Admin/Fondatrice
Spoon47

Nombre de messages : 2261
Age : 26
Ta localisation : France
Ton membre préféré : mon bras. Bah quoi c'est un membre le bras non?
Date d'inscription : 21/10/2007

MessageSujet: Re: [Guitare] Beichte   Ven Nov 09, 2007 8:34 pm

Avec Tom c'est jamais trop difficile! xD
Je me moque, je me moque mais jserais pas foutue d'inventer ça moi! ^^'

_________________


"Etre fan est une catastrophe magnifique , savoir que l'on fonce dans un mur , mais accélérer quand même..."

[ Nothing more than this silent scream inside ]
Revenir en haut Aller en bas
Voir le profil de l'utilisateur http://luvtom.skyblog.com
Boo'
Admin/Fondatrice
Boo'

Nombre de messages : 1613
Age : 26
Ta localisation : Doha
Ton membre préféré : :face:
Date d'inscription : 15/10/2007

MessageSujet: Re: [Guitare] Beichte   Ven Nov 09, 2007 11:05 pm

spoon47 a écrit:
Avec Tom c'est jamais trop difficile! xD
Je me moque, je me moque mais jserais pas foutue d'inventer ça moi! ^^'

On est 2 a se moquer What a Face

Oui c'est vrai il a quand meme de l'idee^^

_________________
Michael revient je t'en supplis
Reviens...tu as toujours ete present pour moi s'il te plait tu dois revenir...
Un monde sans toi est inconcevable...je realise toujours pas que tu n'est plus la...
Revenir en haut Aller en bas
Voir le profil de l'utilisateur
Contenu sponsorisé




MessageSujet: Re: [Guitare] Beichte   

Revenir en haut Aller en bas
 
[Guitare] Beichte
Revenir en haut 
Page 1 sur 1
 Sujets similaires
-
» guitare slide indienne.
» Guitare luthier AL THIRLEY
» Comment transformer sa guitare pour le slide ?
» Stage guitare blues trad et slide à La Chèze (22)
» recherche de renseignement sur une guitare romantique

Permission de ce forum:Vous ne pouvez pas répondre aux sujets dans ce forum
Le Forum Tokio Hotel :: Tokio Hotel + :: Tabs/Partitions-
Sauter vers: